http://www.twevergrand.net/ - De volta ao novo mundo!
 
InícioBlogPainelGuia do UsuárioChatInícioPortalBuscarMembrosRegistrar-seConectar-se

Compartilhe | 
 

 Como ler Tablaturas

Ver o tópico anterior Ver o tópico seguinte Ir em baixo 
AutorMensagem
Vinícius Princiotti
avatar

Mensagens : 12
Idade : 22
Localização : Guarulhos - SP
Subtexto : .-.

Ver perfil do usuário https://plus.google.com/u/0/100820266184030091607/posts http://twitter.com/Princiotti http://osu.ppy.sh/u/1305628
MensagemAssunto: Como ler Tablaturas Qua Dez 28, 2011 4:35 pm

Como ler Tablaturas

Tablaturas(tab) é a maneira mais simples de ler solos de violão ou guitarra.

Uma tablatura é representada por 6 linhas paralelas e cada uma delas representa uma corda do violão, de cima para baixo, ou seja, a primeira linha representa a primeira corda (mizinho) e a sexta linha representa a última ou 6° corda (mizão). Um exemplo de tablatura, sem notas:

E --------------------------------------------------------
B --------------------------------------------------------
G --------------------------------------------------------
D --------------------------------------------------------
A --------------------------------------------------------
E --------------------------------------------------------

Percebam que as letras que ficam no começo servem para indicar a posição das cordas, com o nome de cada uma delas:

E (mizinho)
B (si)
G (sol)
D (ré)
A (lá)
E (mizão)




A partir da representação acima, cada número inserido nela representa a corda que deve ser tocada, em sua respectiva casa. Exemplo:

E --------------------------------------------------------
B --------------------------------------------------------
G ---------0--------1--0--------------------------------
D ---0--3-----0--3-------------------------------------
A --------------------------------------------------------
E --------------------------------------------------------

O exemplo acima é o início da música Smoke on the water, da banda Deep Purple, e deve ser tocada assim:

- quarta corda (re) tocada solta (0)
- quarta corda (re) tocada na terceira casa (3)
- terceira corda (sol) tocada solta (0)
- quarta corda (re) tocada solta (0)
- quarta corda (re) tocada na terceira casa (3)
- terceira corda (sol) tocada na primeira casa (1)
- terceira corda (sol) tocada solta (0)

Bom, a tablatura é uma maneira simples de tocar solos e não tem uma marcação de tempo. A noção de intervalo de cada nota tocada é passada através da distância entre os números.




Aprendemos o básico, o ínicio. Agora aprenderemos um pouco das notações usadas nas tablaturas.
Além dos números que nos indicam em que casa e corda tocar, existem algumas letras e símbolos usadas para determinar técnicas a serem usadas.

As mais comuns são:

Hammer-on (h)
Pull-off (p)
Bend (b)
Slide (/ ou \)




Hammer-on consiste em martelar com a mão esquerda uma corda em uma casa, fazendo soar a nota sem auxílio da mão direita:

E --------------------------------------------------------
B --------------------------------------------------------
G --------------------------------------------------------
D --------------------------------------------------------
A ---------5h7-----------5h7---------------------------
E ---0--0----------0--0---------------------------------

No exemplo acima, após ferir a corda mizão solta duas vezes, o músico deverá ferir a 5° corda na quinta casa e rapidamente apertar a mesma corda, duas casas a frente, fazendo a corda soar apenas com a martelada e sem o auxílio da mão direita. Depois repita o mesmo processo.

Pull-off é o inverso do hammer-on. Consiste em soltar a corda rapidamente fazendo com que a mesma soe solta ou aperta em uma casa anterior.

E ----3p0-----------------------------------------------
B ---------3p0------------------------------------------
G --------------2p0-------------------------------------
D -------------------2-----------------------------------
A --------------------------------------------------------
E --------------------------------------------------------

No exemplo acima o primeiro pull-off na corda mais fina consiste em ferir a corda apertada no terceiro traste e soltá-la rapidamente para que soe solta.

Bend consiste em empurrar uma corda para cima aumentando a tensão e consequentemente gerando uma nota mais aguda. Um número é usado para indicar o quanto a nota deve ser aumentada.

E ------------------------------------------------------
B ------7b9-------------------------------------------
G ------------------------------------------------------
D ------------------------------------------------------
A ------------------------------------------------------
E ------------------------------------------------------

No exemplo acima a corda (re) deve ser tocada na sétima casa e empurrada para cima até que soe mais aguda como se estivesse apertada na nona casa (um tom acima). Note que o dedo do musico continuara na sétima casa. O bend pode também ser indicado entre parênteses como 7b(9).

Slide consiste em fazer deslizar um dedo da mão esquerda pelo braço enquanto uma corda soa gerando uma variação do tom.

E ------------------------------------------------------
B ------7/9--------------------------------------------
G ------------------------------------------------------
D ------------------------------------------------------
A ------------------------------------------------------
E ------------------------------------------------------

O exemplo acima indica que a corda deve ser ferida na sétima casa e imediatamente o dedo que aperta a corda nesta casa deve deslizar para a nona casa enquanto a nota continua soando (aumentando portanto um tom).












Obrigado
e Até Mais!
Mr. Foran
avatar

Mensagens : 59
Idade : 21
Localização : Araraquara/SP. Mas u
Subtexto : Um dia eu faço algo útil pra voce jogar. E ENFIO UMA BO

Ver perfil do usuário http://gabrielforan.deviantart.com/ http://twitter.com/#!/GabrielForan http://www.facebook.com/profile.php?id=100002929713042 http://steamcommunity.com/id/foranplays http://osu.ppy.sh/u/1247293
MensagemAssunto: Re: Como ler Tablaturas Qua Dez 28, 2011 9:29 pm

Ótimo tutorial. Tipo, eu nunca sabia o que b e h significavam, e isso deixava as músicas tensas quando eu tocava. Ou era por isso ou era por eu ser péssimo mesmo. Ou os dois, quem sabe.
~SeeYa!
Vinícius Princiotti
avatar

Mensagens : 12
Idade : 22
Localização : Guarulhos - SP
Subtexto : .-.

Ver perfil do usuário https://plus.google.com/u/0/100820266184030091607/posts http://twitter.com/Princiotti http://osu.ppy.sh/u/1305628
MensagemAssunto: Re: Como ler Tablaturas Qui Dez 29, 2011 12:51 pm

Obrigado, eu também tinha um pouco de problema no começo, mas como não sou preguiçoso que nem você, eu resolvi procurar. -q

Os dois. -q
Mr. Foran
avatar

Mensagens : 59
Idade : 21
Localização : Araraquara/SP. Mas u
Subtexto : Um dia eu faço algo útil pra voce jogar. E ENFIO UMA BO

Ver perfil do usuário http://gabrielforan.deviantart.com/ http://twitter.com/#!/GabrielForan http://www.facebook.com/profile.php?id=100002929713042 http://steamcommunity.com/id/foranplays http://osu.ppy.sh/u/1247293
MensagemAssunto: Re: Como ler Tablaturas Qui Dez 29, 2011 1:50 pm

Podia postar um tutorial ensinando a afinar violão e/ou guitarras. Aí minha preguiça vai embora rapidinho ;D
~SeeYa!
Conteúdo patrocinado


MensagemAssunto: Re: Como ler Tablaturas

 

Como ler Tablaturas

Ver o tópico anterior Ver o tópico seguinte Voltar ao Topo 
Página 1 de 1

Permissão deste fórum:Você não pode responder aos tópicos neste fórum
The World of EverGrand-